Список форумов Всероссийский школьный форум  Список форумов Всероссийский школьный форум  
  Всероссийский школьный форум
FAQ  FAQ   Поиск  Поиск   Пользователи  Пользователи   Группы  Группы
 
Регистрация  ::  Вход Войти и проверить личные сообщения
 
Список форумов Всероссийский школьный форум » Всё для музыкантов » Аккорды песен.

Начать новую тему  Ответить на тему
 Аккорды песен. « Предыдущая тема :: Следующая тема » 
Автор Сообщение
Юрец
СообщениеДобавлено: Пт Май 29, 2009 3:09 pm    Заголовок сообщения: Аккорды песен. Ответить с цитатой

Администратор

   
Зарегистрирован: 19.01.2009
Сообщения: 106
Откуда: Вольск

Друзья!!!Я создал эту тему для того чтобы вы делились Аккордами,табами различных музыкальных композиций. Просьба всех кто может добавляйте сюда свои просьбы или уже имеющиеся аккорды.
_________________
ПАНКИ НЕ УМИРАЮТ!!!!
Вернуться к началу
Посмотреть профиль Отправить личное сообщение
Rufus
СообщениеДобавлено: Пт Май 29, 2009 3:19 pm    Заголовок сообщения: Ответить с цитатой

Администратор

   
Зарегистрирован: 24.03.2009
Сообщения: 160
Откуда: вольск

Nirvana
Man who sold the world


Voicings:

A - x0222x
D5 - xx023x
F - 133211
C - x3555x
G - 355433
Bb - x1333x

Проигрыш (with distortion); Repeat 6x
E|--------------------|- -|-----|-
B|--------------------|- -|-----|-
G|--2-2-2-0--2Н3p2-0--|- -|--2~-|-
D|--------------------|- -|-----|-
A|--------------------|- -|-----|-
E|--------------------|- -|-----|-

A
We passed upon the stairs,
D
We spoke of was and when
A
Although I wasn't there
F
He said I was his friend
C
Which came as a surprise
A D
I spoke into his eyes - I thought you died alone
C
A long long time ago

C - Riff F - Riff
E|-----------------|- -|-----------------|-
B|-----------------|- -|-----------------|-
G|-----------2-4-5-|- -|-----------------|-
D|-----2-3-5-------|- -|-----------0-2-3-|-
A|-3-5-------------|- -|-----0-1-3-------|-
E|-----------------|- -|-1-3-------------|-

F
Oh no, not me,
Bb F
We never lost control,
C F

You're face to face,
Bb A
With the man who sold the world

[Repeat Проигрыш]

A
I laughed and shook his hand,
D
I made my way back home,
A
I searched for form and land,
F
Years and years I roamed,
C
I gazed a gazely stare,
A D
We walked a million hills - I must have died alone,
C
A long long time ago.

F
Who knows, not me,
Bb F
I never lost control,
C F
You're face, to face,
Bb A
With the man who sold the world.

[Repeat Проигрыш]
[Repeat second Припев:]
[Repeat Проигрыш]

Outro: (Not very accurate, but at least the right notes)
E|-------------------------------------------------------|
B|-------------------------------------------------------|
G|--2-2-2-0--2Н3p2-0--2-2-2-0--2Н3p2-0--/9-9-9-9-9-9-9-9-|
D|-------------------------------------------------------|
A|-------------------------------------------------------|
E|-------------------------------------------------------|

E|-------------------------------------------------------|
B|-------------------------------------------------------|
G|--\2-2-2-0--2Н3p2-0--2-2-2-0--2Н3p2-0-/10-10-10-10-10--|
D|-------------------------------------------------------|
A|-------------------------------------------------------|
E|-------------------------------------------------------|

E|-------------------------------------------------------|
B|-------------------------------------------------------|
G|-\9-\7-7-7-7-7-7-/9-9-9-9-9-\2-2-2-0-2Н3p2-0-/10-10-10-|
D|-------------------------------------------------------|
A|-------------------------------------------------------|
E|-------------------------------------------------------|

E|-------------------------------------------------------|
B|-------------------------------------------------------|
G|-10-10-\9-\7-7-7-7-7-7-/9-9-9-9-9-\2-2-2-0-2Н3p2-0--2--|
D|-------------------------------------------------------|
A|-------------------------------------------------------|
E|-------------------------------------------------------|


Linkin Park
A.06

Tuning: low to high: C#, G#, C#, F#, A#, D# (необходимо перенастроить гитару!)


Intro (play with high treble and slightly muted, with your wrist barely pressing
the string at the bridge/tailpiece of the guitar)
D#|----------------------------------|
A#|----------------------------------|
F#|----------------------------------|
C#|----------------------------------|
G#|----------------------------------|
C#|--7-0-0-0-1-0-0-0--0-1-0-1-0-0-0--|

Main Riff
D#|----------------------------------|
A#|----------------------------------|
F#|----------------------------------|
C#|--0-2-1-0-6-0-2-3-0-3-4-0-7-3-1---|
G#|--0-2-1-0-6-0-2-3-0-3-4-0-7-3-1---|
C#|--0-2-1-0-6-0-2-3-0-3-4-0-7-3-1---|

One Step Closer

Tuning: low to high: C#, G#, C#, F#, A#, D#

Intro (optional: play the open notes slightly muted, with your wrist barely pressing
the string near the bridge/tailpiece of the guitar to create a distorted crunch like
in the song)
D#|-------------------------------|
A#|-------------------------------|
F#|-------------------------------|
C#|-------------------------------|
G#|-------------7-----------------|
C#|--0--*5--*7------8--*7--0--3---|

Verse
D#|---------------------------|
A#|---------------------------|
F#|----------9-----------5----|
C#|---0-0--x-x----8-7----x----|
G#|---0-0--x-7----8-7----7----|
C#|---0-0--x------8-7--0------|

Little Pre-Chorus part 1
D#|------------------------------|
A#|------------------------------|
F#|------------------------------|
C#|--55--xx-x-55--xx-x-55--xx-x--|
G#|--55--xx-x-55--xx-x-55--xx-x--|
C#|--55--xx-x-55--xx-x-55--xx-x--|

Chorus
D#|---------------------------------------|
A#|---------------------------------------|
F#|---------------------------------------|
C#|--00-0/12--1010-7--1010--55--77--33---|
G#|--00-0/12--1010-7---8-8--55--77--11---|
C#|--00-0/12--1010-7---8-8--55--77--11---|

(after 4th time chorus riff is played: after 2nd chorus and at end)
D#|-------------------|
A#|-------------------|
F#|-------------------|
C#|--1-1-1-1-1-1-1-1--|
G#|--1-1-1-1-1-1-1-1--|
C#|--1-1-1-1-1-1-1-1--|
[PALM MUTE ALL]

Little Pre-Chorus part 2
D#|---------------------------------*5-*5-*5--|
A#|------------------------------*5-----------|
F#|-------------------------------------------|
C#|--55--xx-x-55--xx-x-55--xx-x---------------|
G#|--55--xx-x-55--xx-x-55--xx-x---------------|
C#|--55--xx-x-55--xx-x-55--xx-x---------------|

Bridge "Shutup when I'm talking to you..."
D#|------------------------------------------|
A#|------------------------------------------|
F#|------------------------------------------|
C#|-1-0---x-x---0--1-3-0-0--6-0--[0--0--0]--|
G#|-1-0---x-x---0--1-3-0-0--6-0--[0--0--0]--|
C#|-1-0---x-x---0--1-3-0-0--6-0--[0--0--0]--|
[PALM MUTE ALL] [fourth time only]



Аккорды и текст песни группы Ария ПОТЕРЯННЫЙ РАЙ

Am
От кpая до кpая
D
Hебо в огне сгоpает,
F
И в нем исчезают
C G
Все надежды и мечты.

Am
Hо ты засыпаешь,
D
И ангел к тебе слетает,
F
Смахнет твои слезы,
C G
И во сне смеешься ты!


F
Засыпай,
G Am
Hа pyках y меня засыпай,
F
Засыпай
G Am
Под пенье дождя...
F
Далеко,
G Am B C D
там, где неба кончается кpай,
F
Ты найдешь
G Am
Потеpянный pай.


Во сне хитpый демон
Может пpойти сквозь стены,
Дыханье y спящих
Он yмеет похищать.

Бояться не надо,
Дyша моя бyдет pядом,
Твои сновиденья
До pассвета охpанять.


Bm
Подставлю ладони -
E
Их болью своей наполни,
G
Hаполни печалью,
D A
Стpахом гyлкой темноты,

Bm
И ты не yзнаешь,
E
Как небо в огне сгоpает,
G
И жизнь pазбивает
D A
Все надежды и мечты.


G
Засыпай,
A Bm
Hа pyках y меня засыпай,
G
Засыпай
A Bm
Под пенье дождя...
G
Далеко,
A Bm C# D E
там, где неба кончается кpай,
G
Ты найдешь
A Bm
Потеpянный pай.


Табулатуры:
1. Соло после первого куплета:
1|---------------------------------------------------------------------
2|-----10----12--10--12--13--12--13----13--12--13--15--13--15-


1|--17--19--20--19---19--17--19--
2|----------------


2.Соло после второго куплета:
3|------------------9-8-9----------------------8-9----------------------
4|-7--10-9-10---7--------10---7--10-9-10--------10--9-10-7--6-7---
5|----------------------------------------------------------------------8-
Потом тоже самое, только на октаву выше.


3.Соло после третьего куплета:
2|--7--7-------------7--7-------------7--7-----------------------------------
3|---------9-7--------------9-7--------------9-7---------6-7-7-7-9-6--7-6----
4|--------------9-9--------------9-9--------------9-9--9------------------9--
Повторять, пока не надоест...


Dm6/A:
E A D G H E
[x 0 3 4 3 x]



вообще, у меня ещё много интересного.. принимаю заказы)
_________________
гениальность и безумие это всего лишь две крайности одной личности


Последний раз редактировалось: Rufus (Пт Май 29, 2009 3:30 pm), всего редактировалось 2 раз(а)
Вернуться к началу
Посмотреть профиль Отправить личное сообщение
Юрец
СообщениеДобавлено: Пт Май 29, 2009 3:20 pm    Заголовок сообщения: Ответить с цитатой

Администратор

   
Зарегистрирован: 19.01.2009
Сообщения: 106
Откуда: Вольск

Король и Шут-Американское MTV

Вступление: Am | G | F | G > 4 раза

Am G
Открыл глаза,
F G
Поставил чайник,
Кипит вода,
Не сплю ночами.
Открыл окно,
Аптека, скверик,
Все как обычно,
Включил я телик.

Am G F G
Здравствуй, Америка - MTV,
В городе гаснут ночные огни,
В моем телевизоре - MTV,
Режет глаза мои RNB.

Am F G
Сука
E Am F G
Заскулила,
Am F G
С кошкой чего-то
E Am F G
Не поделила,

Am D Hm G
Мы живем здесь уйму лет,
Моя Жучка, я, да черный кот,
Нас троих окутал свет
Am D Hm G F
Теле-радио частот, ооо...

Американского MTV,
В городе гаснут ночные огни,
В моем телевизоре снова они,
Нервы ржавеют русской души.

Сука заскулила,
С кошкой чего-то не поделила.

Ты почто котяра злой,
Да собачке в глазик коготь свой,
Ей же больно, как и мне,
Видеть, что в моей стране,
Видеть мне
БОЛЬНО!!!

Американское MTV,
В городе гаснут ночные огни,
В моем телевизоре снова они,
Режет глаза мои RNB.

Проигрыш: Am | G | F | G > 4 раза

Мы живем здесь уйму лет,
Моя Жучка, я, да черный кот,
Нас троих окутал свет
Теле-радио частот, ооо...

Американского MTV,
В городе гаснут ночные огни,
В моем телевизоре снова они,
Нервы ржавеют русской души.

Здравствуй, Америка - MTV,
В городе гаснут ночные огни,
В моем телевизоре - MTV,
Режет глаза мои RNB.
G A
MTV

Проигрыш: Am | G | F | G > 2 раза

Am G F G
MTV

Кода: Am | G | F | G > 2 раза



Трофим-Крылья

Am Dm E Am
Опустошенные четны надежды
Dm Am F E
Мы просто пленники собственных грез
Am Dm E Am
Света лишенные, в Боге – невежды
Dm Am F E
Мчимся среди остывающих звезд
Dm F E Am
С утра привычная гонка по кругу
Dm F E Am
Дела, заботы которых не счесть
Dm F E Am
Игра, где мы потеряли друг друга
Dm Am F E
Скажи, зачем нужна благая весть

Припев:
Am F E
Крылья сброшены на землю
Am F E
Мы больше никогда не полетим на свет
Am F E
И в этой позабытой, Господом, вселенной

Am F E
Не надо звать любовь, ее здесь больше нет…


Мы были нищи, мы были святы
Небо лучилось от нашей любви
Но искушение миром объято
Мы стали просто чужими людьми
С утра привычная гонка по кругу
Дела, заботы которых не счесть
Игра, где мы потеряли друг друга
Скажи, зачем нужна благая весть

Припев.

С утра привычная гонка по кругу
Дела, заботы которых не счесть
Игра, где мы потеряли друг друга
Скажи, зачем нужна благая весть

Припев.

Опустошенные четны надежды
Мы просто пленники собственных грез
Света лишенные, в Боге – невежды
Мчимся среди остывающих звезд…
_________________
ПАНКИ НЕ УМИРАЮТ!!!!
Вернуться к началу
Посмотреть профиль Отправить личное сообщение
Юрец
СообщениеДобавлено: Пт Июн 05, 2009 8:40 pm    Заголовок сообщения: Ответить с цитатой

Администратор

   
Зарегистрирован: 19.01.2009
Сообщения: 106
Откуда: Вольск

Король и Шут-Воспоминания о былой любви

Партия гитары.
Куплет:
E-|-----------------------------------------------
H-|-----------------------------------------------
G-|--------------------------------------4--4/5\4-
D-|-----1-2-4-5~------2-4~------------------------
A-|-2-4-----------3-5---------0-2-3-2-0--2--------
E-|-------------------------3---------------------

Соло:
E-|-------------------------------------------------------
H-|-------------------------------------------------------
G-|---4-5-----5-4-----4-2---------------------------------
D-|-2-----5-4-----4-2-----2-------------------------------
A-|------------------------1/2-2-2-1/2-2-2-1/2-2-2-1/2-2-2
E-|-------------------------------------------------------

E-|-------------------------------------------------------
H-|-------------------------------------------------------
G-|---7-5-----5-4-----4-2---------------------------------
D-|-2-----5-4-----4-2-----2-------------------------------
A-|------------------------1/2-2-2-1/2-2-2-1/2-2-2-1/2-2-2
E-|-------------------------------------------------------


Em Am
Дремлет за горой
D G
Мрачный замок мой.
C Am
Душу мучает порой
H
Царящий в нем покой.
Для твоих фантазий
Страждущий герой
О любви моей живой
Все образы со мной.


Припев:
Em Am
Я часто вижу страх
D Hm Em
В смотрящих на меня глазах.
Em Am D G
Им суждено уснуть в моих стенах,
C
Застыть в моих мирах.
Но сердце от любви горит,
Моя душа болит.
И восковых фигур прекрасен вид,
C H
Покой везде царит.


Я их приводил
В свой прекрасный дом,
Их вином поил,
И развлекались мы потом.
Иногда у них
Легкий был испуг
От прикосновений
К нежной шее крепких рук.

Вот несет одна
Мне свои цветы,
Вот стоит другая,
Погруженная в мечты.
Я пытался их
До смерти рассмешить,
Но пришлось,
Как в старой сказке, просто задушить.


Король и Шут-Любовь и пропеллер

Em Am
Он печален был, он её любил,
C D
Но во всём ему отказ, что б он не попросил!
С горя он тогда пропеллер смастерил,
Как получилось - сам не понял!

Как-то вышел он на луг и увидел вдруг:
На краю утёса она молча смотрит вдаль.
Охватила тут юношу печаль,
И, разбежавшись, вниз он прыгнул,

Hm Gm#
И с утёса вниз парень полетел,
Em D C Am Em D C Am
И завыл залётный ветер, гибели его свидетель.

Плакала она и его звала,
Укоряла и бранила девушка себя:
"Ах, какая я бестолковая!
Ну почему в нём сомневалась?!

И с утёса вниз парень полетел,
И завыл залётный ветер, гибели его свидетель.

И в тот самый миг юноша возник,
И с улыбкой над утёсом в воздухе повис.
И воскликнул он:
"Милая, сюрприз!".
Но вдруг заглох его пропеллер...

И с утёса вниз парень полетел,
И завыл залётный ветер, гибели его свидетель.
_________________
ПАНКИ НЕ УМИРАЮТ!!!!
Вернуться к началу
Посмотреть профиль Отправить личное сообщение
Юрец
СообщениеДобавлено: Ср Июн 10, 2009 9:19 am    Заголовок сообщения: Ответить с цитатой

Администратор

   
Зарегистрирован: 19.01.2009
Сообщения: 106
Откуда: Вольск

Король и Шут-Красавец-Мерзавец

D A F#m D
Опять в деревне этот парень появился,
A F#m D
Последний месяц глаз мозолит без конца.
A Hm G
Вы поглядите, как он снова нарядился!
F# Hm
Спасайте девушки невинные сердца!

Hm
И шляпа есть и борода,
Em F#
Ну парень - хоть куда.
Hm G Em F#
Красавец! Красавец!
Hm
По девкам он туда-сюда
Em F#
Шныряет без стыда.
Hm G Em F#
Мерзавец! Мерзавец!

Мила Анфиска, красота её от бога.
Ему была готова всю себя отдать.
И было сложно - да спросите вы любого!
Усы не обмочив, на свадьбе погулять.

И шляпа есть и борода,
Ну парень - хоть куда.
Красавец! Красавец!
По девкам он туда-сюда
Шныряет без стыда.
Мерзавец! Мерзавец!

На брачном ложе неуместны плащ и шляпа.
Анфиса шепчет мужу - "Ты, любимый - хам!"
В ответ красавец закричал - "Щекотно, папа!"
И в тот же миг жених переломился пополам.

И шляпа есть и борода,
Ну парень - хоть куда.
Красавец! Красавец!
По девкам он туда-сюда
Шныряет без стыда.
Мерзавец! Мерзавец!

Стоит она с открытым ртом,
А просто дело в том,
Едва плащ раскрылся,
Оттуда вылез батя-гном
И сын верхом на нём.
Жених развалился.
_________________
ПАНКИ НЕ УМИРАЮТ!!!!
Вернуться к началу
Посмотреть профиль Отправить личное сообщение
Юрец
СообщениеДобавлено: Ср Июн 10, 2009 9:20 am    Заголовок сообщения: Ответить с цитатой

Администратор

   
Зарегистрирован: 19.01.2009
Сообщения: 106
Откуда: Вольск

Король и Шут-Свой среди чужих

Hm
Как злобно сверкают глаза маньяка
G
Он проклинает всех живых,
A
Но невдомек ему, однако
C
Что есть свой среди чужих!
Hm
Леса и просёлки, деревья да ёлки
G
А в посёлке воют волки.
A C
Опять с ним кто-то хочет поиграть

Hm D
Никого вокруг только сердца стук
G Em F#
И во власти рук заточенный сук, его верный друг
Hm D
Что-то здесь не так будто рядом враг
G Em F#
Как свинец кулак, подруга луна подай верный знак.

Живых как не странно в посёлке нету
Знакомый почерк он узнал
Бывал ли я здесь? Ответ на это
Cам себе маньяк не дал,
Что с памятью стало? Отказала?
Чувство снова подсказало
Тут кто-то был, а ком он напрочь позабыл, всё позабыл.

Никого вокруг только сердца стук
И во власти рук заточенный сук, его верный друг
Что-то здесь не так будто рядом враг
Как свинец кулак, подруга луна подай верный знак.

Но кто-то сзади потехи ради
По рукоятку вонзил в лопатку
Ржавый тесак
И рухнул замертво маньяк не обернувшись!
Над телом, согнувшись и усмехнувшись
Воскликнул кто-то: "Лиха работа!
Мой ученик, ты, плохо ремесло постиг! Зашёл в тупик".

Никого вокруг только сердца стук
И во власти рук заточенный сук, его верный друг
Что-то здесь не так будто рядом враг
Как свинец кулак, подруга луна подай верный знак.

Для того чтобы был кто-то равный мне
Я ему открыл все тайны, и он виновен в двойне, виновен в двойне!
Ненавижу я этих маньяков
Одолеть меня не смог не один из моих учеников, моих учеников...
_________________
ПАНКИ НЕ УМИРАЮТ!!!!
Вернуться к началу
Посмотреть профиль Отправить личное сообщение
Показать сообщения:   
Начать новую тему  Ответить на тему Страница 1 из 1

Список форумов Всероссийский школьный форум » Всё для музыкантов » Аккорды песен.
Перейти:  



Вы не можете начинать темы
Вы не можете отвечать на сообщения
Вы не можете редактировать свои сообщения
Вы не можете удалять свои сообщения
Вы не можете голосовать в опросах

Посещаемость:

Яндекс.Метрика
 
 


DAJ Glass (1.0.5) template by Dustin Baccetti
EQ graphic based off of a design from www.freeclipart.nu
Powered by phpBB © 2001, 2002 phpBB Group
Вы можете бесплатно создать форум на MyBB2.ru, RSS